Smile  Tabs for Bin Tere Sanam(remix version) -

Bin Tere Sanam

------5-------------------5----------
--------6--5----------------6--5-----
---7----------7--------7----------7--
-------------------------------------
-------------------------------------
-------------------------------------

Bin tere sanam, Mar mitenge hum

-----5--------------------------------
---------6---8---6--5-----------------
-7------------------------------------
--------------------------------------
--------------------------------------
--------------------------------------

Aa meri, zindagi...

-5-----5--6---5-----------------------
-----------------8---6--6--8--5-------
--------------------------------------
--------------------------------------
--------------------------------------
--------------------------------------

hoooo aana hi pada sajnaaa....

--------------------------------------
--5--6--5-----6--5--------------------
-----------6--------7-----------------
--------------------------------------
--------------------------------------
--------------------------------------

Zaalim hai dil ki lagi..
Advertisements