Tabs Submission : Kaho Na Kaho - Murder -

Kaho na kaho yeh aankhen bolti hain

----------------------------------------------------------
----------------------------------------------------------
-10-10-9-7-9h10--10-10-10--10-10-10--10-------------------
----------------------------------------------------------
----------------------------------------------------------
----------------------------------------------------------

O sanam o sanam, o mere sanam

----------------------------------------------------------
----------------------------------------------------------
-10-10-10-9-9-7-9h10-10-9--10-10-9-9-7--7-9h10-10-9-------
----------------------------------------------------------
----------------------------------------------------------
----------------------------------------------------------

Mohabbat ke safar mein yeh sahaara hai

----------------------------------------------------------
----------------------------------------------------------
-9-9-9----9-9-9-9--9-9-9-7-7----7-9-10-9------------------
-------10--------------------10---------------------------
----------------------------------------------------------
----------------------------------------------------------

Vafa ke saahilon ka yeh kinaara hai

----------------------------------------------------------
----------------------------------------------------------
-9-9-9--9-9-9-7-7-----------------------------------------
------------------10-8--8-10--8-7-7-----------------------
----------------------------------------------------------
----------------------------------------------------------

Baadalon se oonchi uraanoon ki

----------------------------------------------------------
----------------------------------------------------------
-7-7-7-7--7-7--7-7-9-7------------------------------------
----------------------------------------------------------
----------------------------------------------------------
----------------------------------------------------------

Sab se alag pehechaanoon ki

----------------------------------------------------------
----------------------------------------------------------
----7-7-7--7-7-9-7----------------------------------------
-10-------------------------------------------------------
----------------------------------------------------------
----------------------------------------------------------

Use hai pyaar ki kahaani mansoob

----------------------------------------------------------
----------------------------------------------------------
-9-9-9--9-9--9-7-9-9--7-----------------------------------
------------------------10--------------------------------
----------------------------------------------------------
----------------------------------------------------------

Aati jaati saanson ki rawaani mansoob

----------------------------------------------------------
----------------------------------------------------------
-9-9-9-9--9-10-9-7-7--7-7---------------------------------
----------------------------------------------------------
----------------------------------------------------------
----------------------------------------------------------

Kaho na kaho yeh aankhen bolti hain

O sanam o sanam, o mere sanam

Mohabbat ke safar mein tu hamaara hai

Andhere raaston ka tu sitaara hai

Arabic lyrics follow

Tu hi jeene ka sahaara hai

Meri maujon ka kinaara hai

Mere liye yeh jahaan hai tu

Tujhe mere dil ne pukaara hai

Kaho na kaho yeh saansein bolti hain

O sanam o sanam, o mere sanam

Labon pe naam tere bas hamaara hai

Yeh tera dil bhi jaana hamaara hai

Kaho na kaho yeh aankhen bolti hain

O sanam o sanam, o mere sanam

Mohabbat ke safar mein yeh sahaara hai

Vafa ke saahilon ka yeh kinaara hai

(Khwaabon mein tujhko sanwaara hai

Jazbon mein apne utaara hai

Meri yeh aankhen jidhar dekhe

Tera hi chehra nazaara hai) - 4
Advertisements