surili akhiyon wali intro tabs:

one can change the tabs half note sharp or flat according to the guitar tuning.........

enjoy

1e-2s4---4-7------7--------------------
2B-----------7---7--5---5-4-7-----------

--------------------------------

1e0-2-2s4---4-7------7--------------------
2b---------------7---7--5---5-4-7-----------

--------------------------------------------

1e-----2s4---4-7------7--------------------
2b----------------7---7--5---5-4-7-----------
3g-4-4---------------------------------------

Reply With Quote
Advertisements