Film:- Veer Zaara

Song:- Intro Of The Song Tere Liye

This is only the intro part of the song Tere Liye from the film Veer Zaara one of the best Intro to play on the guitar and is defiantly very melodious.

e---0-3-1-0-0-0-0------------------------------------
B----------------------------------------------------
G----------------------------------------------------
D----------------------------------------------------
A----------------------------------------------------
E----------------------------------------------------

e---1--0---------------------------------------------
B----------------------------------------------------
G----------------------------------------------------
D----------------------------------------------------
A----------------------------------------------------
E----------------------------------------------------

e-------------0--------------------------------------
B--3-1-3-3-3-----3-3--1-1-1--0-----0--1--------------
G-------------------------------2--------------------
D----------------------------------------------------
A----------------------------------------------------
E----------------------------------------------------

e----------------------------------------------------
B--1--0----------1--0--------------------------------
G-------2-0-2-2---------2-0-2-2----------------------
D----------------------------------------------------
A----------------------------------------------------
E----------------------------------------------------

e-------------0--1--3--5--7----8-7-5-----5-5-5-------
B----0--1--3--------------------------8--------------
G--2-------------------------------------------------
D----------------------------------------------------
A----------------------------------------------------
E----------------------------------------------------

e-1--0-----------------------------------------------
B--------3--1--3--3--3-------------------------------
G----------------------------------------------------
D----------------------------------------------------
A----------------------------------------------------
E----------------------------------------------------

Thats the end of the intro hope you enjoy playing this intro
Advertisements