Pehla nasha tabs Entire song -

Pehla Nasha

Intro

E –5-5-8-8—8-5-----8-8-----5------------5-------------------------------------------
B---------------8-8------6--6--------6h8----------------------------------------------
G-------------------------------------------7s10—5h9-5--7-7- 7----5-5-5-------------
D----------------------------------------------------------------7---------5h7-------

E--------------------------------------------------------------------------------
B--------------------------------------------------------------------------------
G----------------5-----------------------------------------------------------
D-5-5-7-8-7-5-5---5-7-5-5--7p5---------------------------------------------

A--------------------------------8-8----------------------------------------
E---5--------6-5--------5------------------------------------------------
B-----8-6--------8-6-8---8-6-6----------------------------------------------
G-5-------7----------------------------------------------------------------

Song

E-5--------------------------5-6-5-----------5-5/3---8-8-5/6-5-----5-6-5----------
B---8--8-6--6-5--6--8-------------8-6-6-----------6-----------8-----------8-6-6---
G----------------------7-------------------------------------------------------------

Chaho tum kuch na kaho ..Maine sunliya......... Ke saathi pyar ka aa aa Mujhe chunliya

E------5-5\3--5---------5-5\3-
B-6\8------------8--6/8--------

Chunliya aa Maine sunliya aa

Interlude 1

E----------------8--------------------8-----------------------5----------------
B-6---6-6---5-6---6-5-6---6-6---5-6----6-5--------------5-6---6-6h8---8-8-
G--------------------------------------------7---7-7---7------------------------

E--------5-----------------------8---------8-8-8h10-8-------8---------6-6-6h8-6-
B----5-6---8-6-5--6---6-6---5-6---6-5-6----------------5-6---6-5-----------------
G-5-----------------------------------------------------------------7--------------

E---------5---------10-10-10h12-10----------
B----5-6---6-6h8-----------------------6-5-6-
G-7---------------------------------------------

Song

E----6-6-6/7----------5-5----------8---------------5-5-5h6p5----------------
B-6------------8-6-5----------5-6----656----6-6-----------------8-6-5--5-5-

Pehla nasha ...Pehla khumar ....(Music)…....…Naya pyar hai ........naya intezar

E--------------6-5-5------------5------------------6-5-5--------5------
B-6-5----5-6---------------5-6---8-8----6-5---5-6----------6h8---6-8-
G------7-----------------7-------------------7------------------------------

Kar loo mai kya apna har Ae dil e bekarar Mere dil e bakarar... Tu hi bata

Pehla nasha Pehla khumar

Interlude 2

E-6--10-5---5---5-5h6-8-6-8--8/10-8-------------5--5--10-5---5----
B-5-------8---------------------------------5-6-8------------8------
G-----------------------------------------7---------------------------

E-5-5h6-8-6-8--8/10------------------5--6-5---0--5-----5----5----------------------------------
B--------------------8--------------------------8----8-----8---86-865-6--------5-6-5-6--6h8p6-
G---------------------------5---------7-------------------------------------7-7------------------
D-------------------------7---7-5----------------------------------------------------------------
A-------------------------6-------8-5------------------------------------------------------------

Song

E-8-7-8---5-6-5---5--------------5----------8-7-8---5-6-6/8-5---5----------------5---------
B-------8------------8--6--5-5------8-8------------8-----------------8--6--5-5-----8-8----

Udta hi phiroon In hawaayon mein kahi........ Yaa main jhool jaoon In ghataon mein kahi

E---------------------------
B---------------------------
G-------------5--------5---
D-5-7-8--7--8---8-7-5------

(Music).............................Udta hi phiroon….

E---------5--6-5--------------------5--6--8-8----------------
B-8-6-8----------8--6-8----8-6-8--------------6--6h8-5-6-

Ek kar doo asman zameen ..Kaho yaro kya karu ..........kya nahi

Pehla nasha….

Interlude 3

E-7--9-14---9---7--9-7---5--7-12---7---5--7-5---------7--9-7--------------------5-5/6--

B-----------------------------------------------------6---------8/10--8-8---6-8---------
E-9-7----------------7--9-7----------------------------(5h6p5--5h6-5h6p5)--
B-----10--8/10-8------------8/10-8-8----8--6-8----------------------------------
E-0h5-5h6-6-----8-
B------------8-6---

Song

Usne baat ki Kuch aise dhang se

Sapne de gaya Who hazaron rang ke (2)

Reh jaoon jaise main harke

Aur choome who mujhe pyar se

Pehla nasha….

Hope its fine..Any crrections?
Advertisements