The Killer: Phirta Rahoon Tabs + Chords (Strummin + Tune Included) Enjoyy -

Hey Buddies,

We all wanted it right ?? ?? ??

Song: Teri Yadon Mein

Tabs !

phirta rahoon dar badar , milta nahi tera nishan

|----------------------------------------------------------------------------
|----------------------------------------------------------------------------
|---7-6-4--3-3-4--6-4-------7-6-4-3-3-4-6-4-------------------------------------------------
|-4-----------------------4----------------------------------------------------

hoke judaa kab mein jiyan tu hai kahan main kahan

|----------------------------------------------------------------------------
|----------------------------------------------------------------------------
|---7-6-4--3-3-4--6-4-------7-6-4-3-3-4-6-4-------------------------------------------------
|-4-----------------------4----------------------------------------------------

teri yadon mein khoya rehta hoon mujhko dasti hai tanhayeeyaan......

|----------------------------------------------------------------------------
|--------2-2---2-2-0-3-3--3-3-2--5-5-5--3-5-h7------------------------------------------------
|-4-4-2-------------------------------------------------------------------------
|----------------------------------------------------------------------------

tu jo juda ho gayee , teri sada kho gayee

|----------------------------------------------------------------------------
|7-5---7-5---7-5------7-5---7-5---7-5----------------------------------------------------
|----7-----7--------------7-----7-----------------------------------------------
|----------------------------------------------------------------------------

dekh le phir jindgi , haan kya se kya ho gayee

|----------------------------------------------------------------------------
|7-5---7-5---7-5------7-5---7-5---7-5----------------------------------------------------
|----7-----7--------------7-----7-----------------------------------------------
|----------------------------------------------------------------------------

jab se bichdi hoon rab se kehti hoon kitna soona hai tera jahan

|----------------------------------------------------------------------------
|--------2-2---2-2-0-3-3--3-3-2--5-5-5--3-5-h7------------------------------------------------
|-4-4-2-------------------------------------------------------------------------
|----------------------------------------------------------------------------

hey hey hey , hey hey hey (Sounds Beautiful on strings)

|----------------------------------------------------------------------------
|--3-5-p7--7-8-7-5-p7-----------------------------------------------------------------
|----------------------------------------------------------------------------
|----------------------------------------------------------------------------

phirta rahoon..............

kaise kate jindgi mayoonsiyan bebasi

rahein sabhi kho gayee roshani de roshni

mein to rehti hoon teri rahon mein

bekhabar mijko dhoonde kahan

phirta rahoon.....

Chords For Song Phirta Rahoon......

Bm.........................G

phirta rahoon dar badar , milta nahi tera nishan

bm.........................G

hoke judaa kab mein jiyan tu hai kahan main kahan

A................G......................A......... ....Bm

teri yadon mein khoya rehta hoon mujhko dasti hai tanhayeeyaan......

Phirta Rahoon............

Bm...............A

tu jo juda ho gayee ,

Bm...............A

teri sada kho gayee

Bm...............A

dekh le phir jindgi ,

Bm...............A

haan kya se kya ho gayee

A................G......................A......... ....Bm

teri yadon mein khoya rehta hoon mujhko dasti hai tanhayeeyaan......

jab se bichdi hoon rab se kehti hoon kitna soona hai tera jahan

Phirta Rahoon........

kaise kate jindgi mayoonsiyan bebasi

rahein sabhi kho gayee roshani de roshni

mein to rehti hoon teri rahon mein

bekhabar mijko dhoonde kahan

phirta rahoon.....
Advertisements