Song: Lamha Lamha

Movie: Gangster

lamha lamha doori yun pighalti hai

|---------------------------------------------------------------------------
|-1-p0----------------------------------------------------------------------
|-------0-0-0-0-0-0-0-----2-2----------------------------------------------
|-----------------------3----------------------------------------------------

jaane kis aag mein yeh shabnam jalti hai

|--------------------------------------------------------------------------
|--------------------------------------------------------------------------
|-2-2-2-h3-2-0-----------0--0---------------------------------------------
|----------------3-2--0----------------------------------------------------

ho lamha lamha doori yun pighalti hai

|--------------------------------------------------------------------------
|-1-p0---------------------------------------------------------------------
|-------0-0-0-0-0-0-0-----2-2---------------------------------------------
|-----------------------3--------------------------------------------------

jaane kis aag mein yeh shabnam jalti hai

|--------------------------------------------------------------------------
|--------------------------------------------------------------------------
|-2-2-2-h3-2-0-----------0--0---------------------------------------------
|----------------3-2--0----------------------------------------------------

khwaahishon ki shaam dhalti hain - 2
|-0-0-0-0-3-0-------0------------------------------------------------------
|--------------3--1-----3--------------------------------------------------
|---------------------------------------------------------------------------
|---------------------------------------------------------------------------

jaane kis aag mein yeh shabnam jalti hai

|---------------------------------------------------------------------------
|---------------------------------------------------------------------------
|-2-2-2-h3-2-0-----------0--0----------------------------------------------
|----------------3-2--0-----------------------------------------------------

la la la ... (Same As Intro Music, its beautiful play it sevral times) !!!! !!!!

|-----------0--------------------------------------------------------------
|-1-0-1-3-----1-0---------------------------------------------------------
|-------------------2-----2--0---------------------------------------------
|----------------------3---------------------------------------------------

Beautiful Middle Music (Something Similar To Bheegi Bheegi Song of same movie) : 2 times

it was tough to get exactly right but i hope i did good job!

|-----8-8-7-8-7-8-10-8-7-h10-- 5-7-8-7-5h10- 5----- 5-7-8-7-5-5-----------
|--5-------------------------------------------------------------------------

Stanza 1

teri aankhen dikhati hai

|-----1-1-0-----------------------------------------------------------------
|---------------3-3-3-1-----------------------------------------------------
|-0-------------------------------------------------------------------------
|---------------------------------------------------------------------------

hamein sapanen sitaaron ke

|-----3-3-1--------0-1------------------------------------------------------
|-------------3-3------------------------------------------------------------
|-0--------------------------------------------------------------------------
|----------------------------------------------------------------------------

ho ho ho

|---------------------------------------------------------------------------
|--3-1---------------------------------------------------------------------
|---------------------------------------------------------------------------
|---------------------------------------------------------------------------

tere hothon pe likha hai

|-----1-1-0-----------------------------------------------------------------
|---------------3-3-3-1-----------------------------------------------------
|-0-------------------------------------------------------------------------
|---------------------------------------------------------------------------

jo tum bole ishaaron mein

|-----3-3-1--------0-1------------------------------------------------------
|-------------3-3------------------------------------------------------------
|-0--------------------------------------------------------------------------
|----------------------------------------------------------------------------

ho ho ho

|---------------------------------------------------------------------------
|--3-1---------------------------------------------------------------------
|---------------------------------------------------------------------------
|---------------------------------------------------------------------------

khwaabon ke karwaan mein raat chalti hai

|---------------------------------------------------------------------------
|-1-p0----------------------------------------------------------------------
|-------0-0-0-0-0-0-0-----2-2----------------------------------------------
|-----------------------3----------------------------------------------------

jaane kis aag mein yeh shabnam jalti hain

|---------------------------------------------------------------------------
|---------------------------------------------------------------------------
|-2-2-2-h3-2-0-----------0--0----------------------------------------------
|----------------3-2--0-----------------------------------------------------

la la la... (Music Again)

|-----------0----------------------------------------------------------------
|-1-0-1-3-----1-0-----------------------------------------------------------
|-------------------2-----2--0----------------------------------------------
|----------------------3-----------------------------------------------------

Stanza 2 (Play Exactly Like Stanza 1)

behakti shaam aayi hai

tujhe lekar ke baahon mein

tujhe chhu loon ke rakhu main

chhupakar ke nigaahon mein

sharmati ithlaati hai machalti hai

jaane kis aag mein yeh shabnam jalti hain

ho lamha lamha doori yun pighalti hai

jaane kis aag mein yeh shabnam jalti hai

khwaahishon ki shaam dhalti hain - 2

jaane kis aag mein yeh shabnam jalti hai

la la la ...

Chords For The Song Lamha Lamha Doori Yun

Pretty Simple Baiscally just variation of C,Am,F

you can give more variation by using G where needed !!!! !!!!

C................................................A m

lamha lamha doori yun pighalti hai

F................................................. .C/G ............... (C is more appropriate)

jaane kis aag mein yeh shabnam jalti hai

C................................................A m

ho lamha lamha doori yun pighalti hai

F................................................. .C/G ............... (C is more appropriate)

jaane kis aag mein yeh shabnam jalti hai

C................................................A m

khwaahishon ki shaam dhalti hain - 2

F................................................. .C/G ............... (C is more appropriate)

jaane kis aag mein yeh shabnam jalti hai

C..............Am...........F...............C

la la la ...la la la ..............la la la

C................................Am

teri aankhen dikhati hai

F................................G

hamein sapanen sitaaron ke

C

ho ho ho

C................................Am

tere hothon pe likha hai

F................................G

jo tum bole ishaaron mein

C

ho ho ho

C................................................A m

khwaabon ke karwaan mein raat chalti hai

F................................................. .C/G ............... (C is more appropriate)

jaane kis aag mein yeh shabnam jalti hain

C..............Am...........F...............C

la la la...

Stanza 2 (Play Exactly Like Stanza 1) !!!! !!!!

behakti shaam aayi hai

tujhe lekar ke baahon mein

tujhe chhu loon ke rakhu main

chhupakar ke nigaahon mein

sharmati ithlaati hai machalti hai

jaane kis aag mein yeh shabnam jalti hain

ho lamha lamha doori yun pighalti hai

jaane kis aag mein yeh shabnam jalti hai

khwaahishon ki shaam dhalti hain - 2

jaane kis aag mein yeh shabnam jalti hai

la la la ...

Thanks for taking time in reading my post.

waiting for your REPS HA HA HA )
Advertisements