Intro/Verses- Play 5x, before verses come in

e|---------------------------------------------------|
B|---------------------------------------------------|
G|--7--7--5-4----7-7--5-4----------------------------|
D|--7--7--5-4----7-7--5-4----------------------------|
A|--5--5--3-2-0--5-5--3-2-0--------------------------|
E|---------------------------------------------------|

Chorus

"She should of been a Son"

e|---------------------------------------------------------------------|
B|---------------------------------------------------------------------|
G|---------------------------------------------------------------------|
D|--5--3--2-2--------5--3--2-2---------5--3--2-2--------5--3--2-2-2-2--|
A|--5--3--2-2-3-2-0--5--3--2-2--3-2-0--5--3--2-2--3-2-0-5--3--2-2-2-2--|
E|--3--1--0-0--------3--1--0-0---------3--1--0-0--------3--1--0-0-0-0--|

Solo- Weird distortion

(not sure about), play 2x...

christina i know haha, perfectionist , somethin doesnt sound right here...

e|---------------------------------------------------|
B|---------------------------------------------------|
G|---------------------------------------------------|
D|----------2x---------------------------------------|
A|-5-5-3-2-0-----------------------------------------|
E|-------------8-8--7-10-10-8-7-5--------------------|
Advertisements