Tuning:Drop D

Main Riff

D|------------------------------------------|
A|------------------------------------------|
F|------------------------------------------|
C|------------------------------------------|
G|--------------0---0----------2------2-0---|
D|----0-0-1--2----2---2-2-1-0----0--0------1|

Bridge 1/2

D|---------0-----------------------------------|
A|---------0-----------------------------------|
F|--------------------2--2--2--2----2--2--2----|
C|--4-4-4-----4-4-4---2--2--2--2----2--2--2----|
G|--4-4-4-----4-4-4---0--0--0--0----0--0--0----|
D|--2-2-2-----2-2-2----------------------------|

Bridge 3

D|--------------------------------------|
A|-------------------3-3-3-3--3-3-3-----|
F|--4-4-4-4v-4-4-4---2-2-2-2--2-2-2-----|
C|--4-4-4-4v-4-4-4---0-0-0-0--0-0-0-----|
G|--2-2-2-4v-2-2-2---0-0-0-0--0-0-0-----|
D|--------------------------------------|

Solo

D|----------2v-|---------2v-|---------2v-|--4v--2-----|
A|--2v--5---2v-|--2v--5--2v-|--2v--5--2v-|--2v--2--5v-|
F|--2v--2------|--2v--2-----|--2v--2-----|---------2v-|
C|-------------|------------|------------|------------|
G|-------------|------------|------------|------------|
D|-------------|------------|------------|------------|

or

D|-------------------------------------------------------|
A|-------------------------------------------------------|
F|-6v--9v-11v/6--6v--9v-11v/6--6v--9v-11-11b-11-11-9-9/6-|
C|-------------------------------------------------------|
G|-------------------------------------------------------|
D|-------------------------------------------------------|

End

D|----|

A|----|

F|----|

C|--4-|

G|--4-|

D|--2
Advertisements