e|-------------------------------------------------------------------|
B|-------------------------------------------------------------------|
G|-----6-------------------------------------------------------------|x 4
D|-----6-------------------------------------------------------------|
A|-6h8---6-----------------------------------------------------------|
E|---------6---------------------------------------------------------|
Then vocals come in- "Ridin' down the highway..."
Lead doesnt play anything in the first half of the verse, but in the last 8
bars, he plays this-
e|-6---6-------6---6-------6---6-------6---6-------------------------|
B|-6---6-------6---6-------6---6-------6---6-------------------------|
G|-------------------------------------------------------------------|
D|-------------------------------------------------------------------|x2
A|-------------------------------------------------------------------|
E|-------------------------------------------------------------------|
Then both guitars play this - let ring
e|-------------------------------------------------------------------|
B|-------------------------------------------------------------------|
G|---------------------------------8---------------------------------|x2
D|-----8----------------6----------8------------8--------------------|
A|-----8----------------6----------6------------8--------------------|
E|-----6----------------4-----------------------6--------------------|
"It's a long way to the top if you wanna rock'n'roll..."
e|-------------------------------------------------------------------|
B|-------------------------------------------------------------------|
G|------------------------------------------8~-----------------------|
D|------------------------------------------6~-----------------------|
A|-------------------------------------------------------------------|
E|-------------------------------------------------------------------|
"If you think its easy doin' one night stands..."
e|-------------------------------------------------------------------|
B|-------------------------------------------------------------------|
G|----------------------------8~-------------------------------------|
D|----------------------------8~-------------------------------------|
A|----------------------------6~-------------------------------------|
E|-------------------------------------------------------------------|
"Try playin' in a rock'n'roll band..."
e|-------------------------------------------------------------------|
B|-------------------------------------------------------------------|
G|------8--------------8---------------------------------------------|
D|------6--------------8------------------------8--------------------|
A|---------------------6------------------------8--------------------|
E|----------------------------------------------6--------------------|
"It's a long way to the top if you wanna rock'n'roll!..."
Then the Rythm guitar comes back in with this until the guitar solo
e|-------------------------------------------------------------------|
B|-------------------------------------------------------------------|
G|-------------------------------------------------------------------|
D|-------------------------------------------------------------------|
A|-6--8-x-x-8-8------------------------------------------------------|
E|-6--6-x-x-6-6------------------------------------------------------|
Bagpipe Interlude
And the lead plays- (guitar and bagpipes) you can play the bagpipes
part on the guitar
e|-----/6/--                    e|-----6-----|
B|----------                    B|-----------|
G|-6h7------ Guitar x 4         G|-6-7-------|Bagpipes x 4
D|----------                    D|-----------|
A|----------                    A|-----------|
E|----------                    E|-----------|
Advertisements