Archive for February, 2011


The initial music of the song

e|----4--7--5-5-5-5-5-------4---7-5-5-5-5-5--------
B|---5---------------------5------------------------
G|-----------------------------------------------


e|----5--------------------------------------------
B|---5-5----7--5-5-5-5-5-5-----------7----5--5-5--5-5--
G|----------------------------6--7----------------

the srtumming paterrn.
down down up up down

The Song is played on A and D chord no major changes

A.
.Ek.ladki.ko.dekha.to.aisa.laga.....
 Continue reading 
Advertisements
-------------------------------------------------------------------------------
E-----------------------------------------------------
B-----------------------------------------------------
G-----------------------------------------------------
D-----------------------------------------------------
A------1-3----3-3----------1-3---3-3--------1-3---3-3-
E-1-3-----------------1-3--------------1-3------------
--------------------------------------------------------------------------------

E-----------------------------------------------------
B-----------------------------------------------------
G-----------------------------------------------------
D-----------------------------------------------------
A----------1--3-3-------------1--3-3------------------
E--1---3--------------1---3---------------------------
 F   G   A# C C     F   G   A# C C
 Dil chahta hai,    dil chahta hai
 Continue reading 

If an essential Windows file gets whacked by a virus or otherwise corrupted, restore it from the Windows CD. Search the CD for the filename, replacing the last character with an underscore; for example, Notepad.ex_. If it’s found, open a command prompt and enter the command EXPAND, followed by the full pathname of the file and of the desired destination: EXPAND D:\SETUP\NOTEPAD.EX_ C:\Windows\NOTEPAD.EXE. If either pathname contains

Continue reading

%d bloggers like this: