Category: Hindi songs chords


(G) (C) (D) (G) (C) (D)

(G)Dooba dooba rehta hoon, (C)aankhon mein (G)teri
(G)Deewana ban gaya hoon main (C)chaahat me (G)teri
(G)Dooba dooba rehta hoon, (C)aankhon mein (G)teri
(G)Deewana ban gaya hoon main (C)chaahat me (G)teri

Continue reading

    Song: Do Dil Mil Rahe Hain,


    A# Gm
    do dil mil rahe hai

    A# Gm A#
    do dil mil rahe hai, magar chupake chupake
    A# Gm A#
    do dil mil rahe hai, magar chupake chupake
    A# D#

Continue reading

Intro Chorus:
G#m                  F#     F#7              G#m
Dil kya kaare, jab kisi se, kisi ko pyaar ho jaaye?
G#m                F#     F#7              G#m
Jaane kahaan kab kisi ko, kisi se pyaar ho jaaye?

Continue reading

********************************
BAATEIN KUCHH ANKAHEE SI

A.......................D....................Bm... ...........E
Baatein kuchh ankahee si, kuchh ansuni si hone lagi

A..................D..................Bm.......... .......E
Kaabu dil pe raha na, hasti hamaari khone lagi

A................D
wo wo o o o o o........

A................E
wo wo o o o o o........

Continue reading

The initial music of the song

e|----4--7--5-5-5-5-5-------4---7-5-5-5-5-5--------
B|---5---------------------5------------------------
G|-----------------------------------------------


e|----5--------------------------------------------
B|---5-5----7--5-5-5-5-5-5-----------7----5--5-5--5-5--
G|----------------------------6--7----------------

the srtumming paterrn.
down down up up down

The Song is played on A and D chord no major changes

A.
.Ek.ladki.ko.dekha.to.aisa.laga.....
 Continue reading 

only three chords

(D) (G) (A)

The strumming pattern at the start of the song is like this:

D – | D U | DUDU – – | D –

For the rest of the song, the strumming pattern changes slightly:

D – | D U | DUDU – – | DUDU

 

Chorus

 

(D)Tumhhi ehsaso mei, (G)Tumhi jazbato mei,

(D)Tumhi lamhato mei, (G)Tumhi din raato mei.

Continue reading

Gm——-F#———–Gm—–F#——–F#—-Bb—

Jaane Khuda Mein ruwa tere siva kaun meraaa..aaaa

———Gm—–F#——–Gm—–F#———-Bb—

Kabhi na honi juda todiye naaaa..aaa saath mera

—-Gm——Bb——-Gm—–Bb–Gm——————Eb——————-F—-Eb–

Jaaniaaaa…aaa Haaniaaaa…aaa Jaania Haania Tu Vi Sikh Ke De Dukh Sukh Pooolna

 

——-Bb———-Bb———————-Eb–

Continue reading

C#m B A

Bulleh! ki jaana maen kaun X4

 

E

Na maen momin vich maseet aan

B

Na maen vich kufar diyan reet aan

A

Na maen paakaan vich paleet aan

B

Continue reading

Song: Lamha Lamha

Movie: Gangster

lamha lamha doori yun pighalti hai

|---------------------------------------------------------------------------
|-1-p0----------------------------------------------------------------------
|-------0-0-0-0-0-0-0-----2-2----------------------------------------------
|-----------------------3----------------------------------------------------

jaane kis aag mein yeh shabnam jalti hai

Continue reading

D—————-G——————A———-D—

Yeh kahan aa gaye hum, yuhi saath saath chalte

A———————————–G——————-D——

Continue reading

%d bloggers like this: