Tag Archive: of


Capo 1

Verse 1
Bm                            D
I know I can't take one more step towards you
A                              Em
'Cause all thats waiting is regret
Bm                               D
And don't you know I'm not your ghost anymore
A                              G
You lost the love I loved the most
Em                 D      A
I learned to live half a life
Em           D             Asus4  A
And now you want me one more time
 Continue reading 
Standerd tunning:  


 E    A    B    G#m    C#m
e|----0----0----0-----4------4------|
B|----0----2----4-----4------5------|
G|----1----2----4-----4------6------|
D|----2----2----4-----6------6------|
A|----2----0----2-----6------4------|
E|--------------------4-------------|


Intro.

e|---0---0---0---0-0---2/4-2-0-|
B|-----0---0---0---4----------4|
G|-----------------4-----------|
D|-----------------4-----------|
A|-0---------------------------|
E|-----------------------------|
 He said...

Verse 1.

 E                      G#m
..."Son, have you seen the world?
 A
Well, what would you say
 E
If I said that you could?
 A
Just carry this gun,
 E
You'll even get paid.".
 B
I said "That sounds pretty good."
 Continue reading 
Intro:
*Let last chord ring*
|--------------------------------|
|--------------------------------|
|-9--------7---6---5-------------|
|-9--------7---6---5-------------|
|-7--------5---4---3-------------|
|-0------------------------------|

*4*Play Four Times*4*
|--------------------------------------------------------------------|
|--------------------------------------------------------------------|
|--------------------7---6---5---------------------------------------|
|--------------------7---6---5---------------------------------------|
|-----7-----6--------5---4---3---------------------------------------|
|-0-0---0-0---0-0---------------------0-0-7-0-0-6-0-0-5-0-4-0-3-0-2--|

*2*Play Two Times*2*
|--------------------------------------------------------------------|
|--------------------------------------------------------------------|
|--------------------------------------------------------------------|
|--------------------------------------------------------------------|
|-----2-----3-----4-----3-----2-2-----2-----3------5\4---5\4---5\4---|
|-0-1---0-1---0-1---0-1---0-1-----0-1---0-1---0-0--3\2-0-3\2-0-3\2---|
 Continue reading 
Drops Of Jupiter -->Train
C
Now that she's back in the atmosphere 
G                                   F
With drops of Jupiter in her hair, hey, hey 
C
She acts like summer and walks like rain 
G                                        F
Reminds me that there's time to change, hey, hey 
C
 Continue reading 

E Standard tuning, capo 1

Chords used in this song:

Em – 0 2 2 0 0 0

G – 3 2 0 0 3 3

Dsus2 – x 0 0 2 3 0

Asus2 – 0 0 2 2 0 0

C – 0 3 2 0 1 0

E/D – 0 2 0 1 3 0

A/G – x 0 2 0 2 0

A/Ab – 0 2 1 2 0 0

(Em)     (G)            (Dsus2)        (Asus2)       (Em)

I walk a lonely road, the only one that I have ever known

(G)           (Dsus2)          (Asus2)         (Em)

Don’t know where it goes, But it’s home to me and I walk alone

(Em)(G)(Dsus2)(Asus2)

(Em)        (G)          (Dsus2)        (Asus2)         (Em)

I walk this empty street, On the Boulevard of broken dreams

(G)          (Dsus2)        (Asus2)         (Em)

Where the city sleeps, And I’m the only one and I walk alone

Continue reading

INTRO | C | C/E | F | F |                                x 4

Oooahhh OOaaaahh ahhhhh

C                      C/E             F

I’ve been roaming around,  Always looking down at all I see

C               C/E           F

Painted faces fill the places I can’t reach

Am          C F

You know that I could use somebody

Am          C F

You know that I could use somebody

Bass & Drums In

C                 C/E               F

Someone like you, and all you know, And how you speak

C          C/E           F

Countless lovers under cover of the street

Am          C F

Continue reading

.EADGBe.

Dsus2 [xx0230]

D [xx0232]

A [x02220]

Asus4 [x02230]

Em7 [x20030]

G [3×0033]          D2’s sound more accurate.

Bm [x04432]

Standard Tuning

W/ Capo on 2

-Intro-

A Bm Dsus2 G

A Bm Dsus2 G

D                   A                          G

I used to think one day we’d tell the story of us

D

How we met and the sparks flew instantly

A                           G

People would say, “They’re the lucky ones”

D                 A                        G

I used to know my place was a spot next to you

D

Continue reading

%d bloggers like this: