Tag Archive: aye


Tum paas aye ……

E -9-10-9-----9-------------------------
B -------12-10--------------------------
G---------------------------------------
D --------------------------------------
A --------------------------------------
E --------------------------------------

Tum Pass Ayye
 Continue reading 
Advertisements
Smile Neele neele ambar par chaand jab aaye TAB

STARTING...

E---------------------------------------------------------------------------
B---------------------------------------------------------------------------
G------2-------3--2--3--2--3--2--3--2-------0-2-0----0---------------0------
D--0-----------------------------------------------3----3--2--0------2------
A----------------------------------------------------------------0---0------
E---------------------------------------------------------------------------
 Continue reading 
%d bloggers like this: