Tag Archive: chand


Suraj Hua Madham

Film - Kabhi Khushi Kabhi Gham

Singers - Sonu Nigam and Alka Yagnik

E |------5--5------------------5----7-8---7-7------------|
B |---5-------5-8-----5------------------------8---------|
G |------------------------------------------------------|
 Continue reading 
Smile Neele neele ambar par chaand jab aaye TAB

STARTING...

E---------------------------------------------------------------------------
B---------------------------------------------------------------------------
G------2-------3--2--3--2--3--2--3--2-------0-2-0----0---------------0------
D--0-----------------------------------------------3----3--2--0------2------
A----------------------------------------------------------------0---0------
E---------------------------------------------------------------------------
 Continue reading 
%d bloggers like this: