Tag Archive: rock on


INTRO: ADLIB SOLO ON GUITAR

...D..

E -2---------------------
B -3---------------------
G -2---------------------
D -0---------------------
A --------2---2-4-5--2---
E ----3-5--------------5- (x 2)

E -------------------------------------------------------------
B -3---3---3---3---3---3---3---3---3---3---3---3---3---3---3---
G ---2---2---2---2---0---0---0---0---4---4---4---4---2---2---2-
D -------------------------------------------------------------
A -------------------------------------------------------------
E -------------------------------------------------------------

Same as start (but in song tempo and in higher octave)
 Continue reading 
Advertisements

Tum ho to gata hai dil ….

The song uses basic chords so even if you have just learned chords, you can play this song comfortably.

Cmaj, Amin, Dmin, Gmaj, Fmaj

Continue reading

%d bloggers like this: