Tag Archive: tere


Gm——-F#———–Gm—–F#——–F#—-Bb—

Jaane Khuda Mein ruwa tere siva kaun meraaa..aaaa

———Gm—–F#——–Gm—–F#———-Bb—

Kabhi na honi juda todiye naaaa..aaa saath mera

—-Gm——Bb——-Gm—–Bb–Gm——————Eb——————-F—-Eb–

Jaaniaaaa…aaa Haaniaaaa…aaa Jaania Haania Tu Vi Sikh Ke De Dukh Sukh Pooolna

 

——-Bb———-Bb———————-Eb–

Continue reading

Film - Murder.

Song - Bheege Hoth Tere.

1)Bheege Hoth Tere..........Pyaasa Dil Mera..

E -------------------------------------------
B --7-7--5---5-5--------7-7---5----5-5-------
G ---------------7-7--------------------7-7--
D -------------------------------------------
A -------------------------------------------
E -------------------------------------------
 Continue reading 
Film:- Veer Zaara

Song:- Intro Of The Song Tere Liye

This is only the intro part of the song Tere Liye from the film Veer Zaara one of the best Intro to play on the guitar and is defiantly very melodious.

e---0-3-1-0-0-0-0------------------------------------
B----------------------------------------------------
G----------------------------------------------------
D----------------------------------------------------
A----------------------------------------------------
E----------------------------------------------------
 Continue reading 
SmileĀ  Tabs for Bin Tere Sanam(remix version) -

Bin Tere Sanam

------5-------------------5----------
--------6--5----------------6--5-----
---7----------7--------7----------7--
-------------------------------------
-------------------------------------
-------------------------------------

Bin tere sanam, Mar mitenge hum
 Continue reading 
%d bloggers like this: