Category: Hindi songs tabs


Dil chahata hai guitar tabs

-------------------------------------------------------------------------------
E-----------------------------------------------------
B-----------------------------------------------------
G-----------------------------------------------------
D-----------------------------------------------------
A------1-3----3-3----------1-3---3-3--------1-3---3-3-
E-1-3-----------------1-3--------------1-3------------
--------------------------------------------------------------------------------

E-----------------------------------------------------
B-----------------------------------------------------
G-----------------------------------------------------
D-----------------------------------------------------
A----------1--3-3-------------1--3-3------------------
E--1---3--------------1---3---------------------------
 F   G   A# C C     F   G   A# C C
 Dil chahta hai,    dil chahta hai
 Continue reading 
Tum dil ki dhakan mein rehte ho……….

E -----5---8---5-------5-----------6----5---6-5------------
B -6--------------8--6-------5--8---------------8-6--------

f   a   c,  a  g  f a,    e  g  a#,  a  a# a g f

Tum dil ki, dhadkan mein, rehte ho, tum  rehte ho
E ----5--8---5-------5----------6------5-------------------
B -6------------8--6------5--8------------8--6-------------

 Continue reading 
Tum paas aye ……

E -9-10-9-----9-------------------------
B -------12-10--------------------------
G---------------------------------------
D --------------------------------------
A --------------------------------------
E --------------------------------------

Tum Pass Ayye
 Continue reading 
Dil Ko Tum Say Pyar Hua of RhTdM 


hope u like it
e-----------------------------------------------------------------------------------------------------
B-----0--1----3--1--0---0-----1--0--------------0------------------------------------------------
G--2------------------2-------------2---0-2--------2--0------------------------------------------
D--------------------------------------------------------0--2----------------------------------------
A------------------------------------------------------------------------------------------------------
E------------------------------------------------------------------------------------------------------

Dilko Tumse Pyaar Hua Pehli Baar Hua Thumse Pyaar Hua
 Continue reading 
Dil To Pagal Hai Tabs
E-------------------------------------------
G-------------------------------------------
D--9-8-6-8-4-------------------------------------
A-------------------------------------------
E-------------------------------------------
dil to pagal hai
 Continue reading 
Cool Zaher Tab: Agar tum mil jaa o -
this is the first line of the song (agar tum miljao....zamana chod denge hum)....
E: 14 - 12 - 14 - 12 - 14 12 - 14 -(REST) 14 - 17- 14 - 14 - 14 - 12
 Continue reading 

Jab Koi Baat Bi-gad Ja-ey

I think that there are many places where it need improvements.

See if u can do any good then please mail me and also tell me.

D—0—0—–4—-4–4—–2-4———4—-0—-2—4—-2—0—–

A—————————————————————–5–

Jab  Koi  Baat  Bi-gad  Ja-ey       Jab  Koi  Mush-kil  Pad Ja-ye

Continue reading

Song: Lamha Lamha

Movie: Gangster

lamha lamha doori yun pighalti hai

|---------------------------------------------------------------------------
|-1-p0----------------------------------------------------------------------
|-------0-0-0-0-0-0-0-----2-2----------------------------------------------
|-----------------------3----------------------------------------------------

jaane kis aag mein yeh shabnam jalti hai

Continue reading

Song-Dilbara guitar tabs

Please make changes if any.

Song-Dilbara

E —————————5————-5—-
B —-5–7-8—5-7-8–5-7—–7–5-7–5—
G ————————————-7

Dilbara Dilbara Dilbara Dilbara
Continue reading

Dil na diya : Krrish Tabs -

HUMMING :-

G |--2-4-5-5-5--4-2--------------------------5-4-2-2-2-------------
D |--------------------5-5-5--5-7-----------------------------------
A |----------------------------------7-7-7--------------------------

MUSIC :-

 Continue reading 
%d bloggers like this: