Tag Archive: hai


Dil To Pagal Hai Tabs
E-------------------------------------------
G-------------------------------------------
D--9-8-6-8-4-------------------------------------
A-------------------------------------------
E-------------------------------------------
dil to pagal hai
 Continue reading 
Awarapan- Jism

E|-----------------------------------------------------------
B|-----------------1--3--------------------------------------
G|--------3-----3--------2-----------------------------------
D|--3-2-0--------------------3-3--3-3--0------2-2------------
A|---------------------------------------3-3-----------------

Aawaarapan, banjaarapan, ek khala hai seene mein
 Continue reading 
Such ke raha he deewana - Rehana he tere dil mein

------------------------------------------------------------------------------
-15-15-14-14----------------------15-15-14-14---------------------------------
--------------16-16-15-15h16-16-----------------16-16-15-15h16-16-------------
------------------------------------------------------------------------------
------------------------------------------------------------------------------
------------------------------------------------------------------------------

such ke raha he deewana dil dil kise se na lagana
 Continue reading 
Thumbs upĀ  Tinka Tinka
e---5--0------0-----0-0----0----
B----------3-------------3------
Tinka Tinka Zara Zara

e--------0----------------------
B--3-3-----3-------0-1-3-5-----
G------5-------5-5-------------
hai roshni se jaise bhara

e---------------------------------
B--6--6--5--6--10---8-3--8--5----
Har dil main armaan hote to hai
 Continue reading 
%d bloggers like this: