Tag Archive: dil


    Song: Do Dil Mil Rahe Hain,


    A# Gm
    do dil mil rahe hai

    A# Gm A#
    do dil mil rahe hai, magar chupake chupake
    A# Gm A#
    do dil mil rahe hai, magar chupake chupake
    A# D#

Continue reading

Advertisements
Intro Chorus:
G#m                  F#     F#7              G#m
Dil kya kaare, jab kisi se, kisi ko pyaar ho jaaye?
G#m                F#     F#7              G#m
Jaane kahaan kab kisi ko, kisi se pyaar ho jaaye?

Continue reading

Dil chahata hai guitar tabs

-------------------------------------------------------------------------------
E-----------------------------------------------------
B-----------------------------------------------------
G-----------------------------------------------------
D-----------------------------------------------------
A------1-3----3-3----------1-3---3-3--------1-3---3-3-
E-1-3-----------------1-3--------------1-3------------
--------------------------------------------------------------------------------

E-----------------------------------------------------
B-----------------------------------------------------
G-----------------------------------------------------
D-----------------------------------------------------
A----------1--3-3-------------1--3-3------------------
E--1---3--------------1---3---------------------------
 F   G   A# C C     F   G   A# C C
 Dil chahta hai,    dil chahta hai
 Continue reading 
Tum dil ki dhakan mein rehte ho……….

E -----5---8---5-------5-----------6----5---6-5------------
B -6--------------8--6-------5--8---------------8-6--------

f   a   c,  a  g  f a,    e  g  a#,  a  a# a g f

Tum dil ki, dhadkan mein, rehte ho, tum  rehte ho
E ----5--8---5-------5----------6------5-------------------
B -6------------8--6------5--8------------8--6-------------

 Continue reading 
Dil To Pagal Hai Tabs
E-------------------------------------------
G-------------------------------------------
D--9-8-6-8-4-------------------------------------
A-------------------------------------------
E-------------------------------------------
dil to pagal hai
 Continue reading 

Gm——-F#———–Gm—–F#——–F#—-Bb—

Jaane Khuda Mein ruwa tere siva kaun meraaa..aaaa

———Gm—–F#——–Gm—–F#———-Bb—

Kabhi na honi juda todiye naaaa..aaa saath mera

—-Gm——Bb——-Gm—–Bb–Gm——————Eb——————-F—-Eb–

Jaaniaaaa…aaa Haaniaaaa…aaa Jaania Haania Tu Vi Sikh Ke De Dukh Sukh Pooolna

 

——-Bb———-Bb———————-Eb–

Continue reading

Tum ho to gata hai dil ….

The song uses basic chords so even if you have just learned chords, you can play this song comfortably.

Cmaj, Amin, Dmin, Gmaj, Fmaj

Continue reading

%d bloggers like this: