Tag Archive: veer


Film:- Veer Zaara

Song:- Intro Of The Song Tere Liye

This is only the intro part of the song Tere Liye from the film Veer Zaara one of the best Intro to play on the guitar and is defiantly very melodious.

e---0-3-1-0-0-0-0------------------------------------
B----------------------------------------------------
G----------------------------------------------------
D----------------------------------------------------
A----------------------------------------------------
E----------------------------------------------------
 Continue reading 
surili akhiyon wali intro tabs:

one can change the tabs half note sharp or flat according to the guitar tuning.........

enjoy

1e-2s4---4-7------7--------------------
2B-----------7---7--5---5-4-7-----------

--------------------------------

1e0-2-2s4---4-7------7--------------------
2b---------------7---7--5---5-4-7-----------
 Continue reading 
%d bloggers like this: