Tag Archive: the


Intro part:

D A Bm G

Verse 1
D       A         Bm       G
Ooooooh, Oooooooh, Ooooooh, hey!

A               Bm                G
Its 72 degrees, zero chance of rain
 D
Its been a perfect day
A                             Bm                      G
 Were all spinning on our heels, so far away from real
 D
In California

E                                 G                   Em
 We watched the sunset from our car, we all took it in
 G                        D
And by the time that it was dark, you and me had something, yeah
 Continue reading 
Advertisements
r1 is:
A                   Dm                  F
E|----------------------------------------------------------------|
B|----------------------------------------------------------------|
G|--2-2-2-0-2-3-2-0-----2-2-2-0-2-3-2-0-----2-2-2-0-2-3-2-0-------|
D|----------------------------------------------------------------|
A|----------------------------------------------------------------|
E|----------------------------------------------------------------|
r2 is: (simply play C Major scale)
C
E|--------------------------------------------------|
B|--------------------------------------------------|
G|------------2-4-5---------------------------------|
D|------2-3-5---------------------------------------|
A|--3-5---------------------------------------------|
E|--------------------------------------------------|
r3: (F Major scale)
F
E|--------------------------------------------------|
B|------------3-5-6---------------------------------|
G|------2-3-5---------------------------------------|
D|--3-5---------------------------------------------|
A|--------------------------------------------------|
E|--------------------------------------------------|
Words and Music by The Doors
with vib. effect                       B(0.25)
|--------|---------|--------|------------|------|---------|---------------|
|--------|---------|--------|------------|------|---------|---------------|
|--------|---------|--------|------------|------|---------|---------------|
|--------|2---2-0-2|--------|2-2-2-0-2-0-|------|---------|---------------|
|--------|---------|--------|-----------2|0-----|0-0-0-3-0|---------------|
|--------|---------|--------|------------|------|---------|-0-------------|
Riders on       riders on            in-to this     in-to this world
the storm       the storm           house were born     were thrown
 Continue reading 

Em                     G               D

No one knows what it’s like, to be the bad man,

C          A

To be the sad man, behind blue eyes

Em                     G          D

No one knows what it’s like to be hated,

C                 A

To be fated, to telling only lies

CHORUS

C  D                   G

But my dreams, they aren’t as empty,

C          D        E

As my conscience seems to be

Bm           C

Continue reading

Capo  5

G (320003)

D (xx0232)

Em* (xx2000)

C (x32010)

D/F# (2×0232)

Bm7 (xx4323)

C/B (xx2010)

Em7/D (xx0003)

Em (022000)

G/B (x20003)

D/A (x00232)

|G   D   |Em*  C  |G   D   |

|Em*     |C       |

G        D/F#     C        G

ooo-ooo  ooo-ooo  ooo-ooo  ooo-ooo

C        Bm7      Em       C

ooo-ooo  ooo-ooo  ooo-ooo  ooo-ooo

G         D/F#             C/B     Em7/D

Somewhere over the rainbow, way up high

C       G/B                      D/A            Em   C

And the dreams that you dream of once in a lullaby______

Continue reading

.EADGBe.

Dsus2 [xx0230]

D [xx0232]

A [x02220]

Asus4 [x02230]

Em7 [x20030]

G [3×0033]          D2’s sound more accurate.

Bm [x04432]

Standard Tuning

W/ Capo on 2

-Intro-

A Bm Dsus2 G

A Bm Dsus2 G

D                   A                          G

I used to think one day we’d tell the story of us

D

How we met and the sparks flew instantly

A                           G

People would say, “They’re the lucky ones”

D                 A                        G

I used to know my place was a spot next to you

D

Continue reading

THE ONLY EXCEPTION – Paramore

INTRO

G  Dm  Cmaj7  x2

VERSE1

G                                 Dm                    Cmaj7

When I was younger I saw my daddy cry and curse at the wind

G                                                Dm          Cmaj7

He broke his own heart and I watched as he tried to re-assemble it

G                                      Dm         Cmaj7

And my mama swore that she would never let herself forget

G                                                  Dm

Continue reading

Song: Just the Way You Are
Album: Doo-Wops & Hooligans

Capo 3

Intro:
D         Bm
Ah, ah ah ah
G            D
Ah ah ah ah, ah ah ah

D
Oh her eyes, her eyes, make the stars look like they’re not shining
Bm
Her hair, her hair, falls perfectly without her trying
G                                         D
She’s so beautiful, and I tell her every day

D
Yeah, I know, I know when I compliment her she won’t believe me
Bm
And it’s so, it’s so sad to think she don’t see what I see
G                                             D
But every time she asks me do I look okay, I say
Continue reading

%d bloggers like this: