Tag Archive: hindi


Song-Dilbara guitar tabs

Please make changes if any.

Song-Dilbara

E —————————5————-5—-
B —-5–7-8—5-7-8–5-7—–7–5-7–5—
G ————————————-7

Dilbara Dilbara Dilbara Dilbara
Continue reading

Dil na diya : Krrish Tabs -

HUMMING :-

G |--2-4-5-5-5--4-2--------------------------5-4-2-2-2-------------
D |--------------------5-5-5--5-7-----------------------------------
A |----------------------------------7-7-7--------------------------

MUSIC :-

 Continue reading 
Film - Murder.

Song - Bheege Hoth Tere.

1)Bheege Hoth Tere..........Pyaasa Dil Mera..

E -------------------------------------------
B --7-7--5---5-5--------7-7---5----5-5-------
G ---------------7-7--------------------7-7--
D -------------------------------------------
A -------------------------------------------
E -------------------------------------------
 Continue reading 
%d bloggers like this: