Tag Archive: to


The initial music of the song

e|----4--7--5-5-5-5-5-------4---7-5-5-5-5-5--------
B|---5---------------------5------------------------
G|-----------------------------------------------


e|----5--------------------------------------------
B|---5-5----7--5-5-5-5-5-5-----------7----5--5-5--5-5--
G|----------------------------6--7----------------

the srtumming paterrn.
down down up up down

The Song is played on A and D chord no major changes

A.
.Ek.ladki.ko.dekha.to.aisa.laga.....
 Continue reading 

if facebook site is blocked for you for some reason mostly in the college and office
you can try these alternatives some of them will work for you and some of them may not it depends on the
what is the technique used in your place to block the site good luck
1))
open command prompt and type (ping http://www.facebook.com) without braces you will get the IP address use this
as http://IP address , example http://192.151.106.51

2))
try this
http://12.www.facebook.com/
Continue reading

Dil To Pagal Hai Tabs
E-------------------------------------------
G-------------------------------------------
D--9-8-6-8-4-------------------------------------
A-------------------------------------------
E-------------------------------------------
dil to pagal hai
 Continue reading 
e|-------------------------------------------------------------------|
B|-------------------------------------------------------------------|
G|-----6-------------------------------------------------------------|x 4
D|-----6-------------------------------------------------------------|
A|-6h8---6-----------------------------------------------------------|
E|---------6---------------------------------------------------------|
Then vocals come in- "Ridin' down the highway..."
 Continue reading 

How to take ownership of files and folders

What if you can have Take Ownership option straight under your right click context menu ? Don’t you think it will be faster and easier to change ownership? If answer is yes then here is method to get Take Ownership option under to right click menu.

Add “Take Ownership” Option in Right Click Context Menu

Continue reading

%d bloggers like this: