Category: English song tabs


Thunderstruck tabs Ac Dc

Intro: (guitar 1)
E------------------------------------|--------------------------------|
B--0h4p0h7p0h4p0h7p0h4p0h7p0h4p0h7p0h|4p0h7p0h4p0h7p0h4p0h7p0h4p0h7p0h|
G------------------------------------|--------------------------------|
D------------------------------------|--------------------------------|
A------------------------------------|--------------------------------|
E------------------------------------|--------------------------------|
 Continue reading 
Advertisements
Intro:
*Let last chord ring*
|--------------------------------|
|--------------------------------|
|-9--------7---6---5-------------|
|-9--------7---6---5-------------|
|-7--------5---4---3-------------|
|-0------------------------------|

*4*Play Four Times*4*
|--------------------------------------------------------------------|
|--------------------------------------------------------------------|
|--------------------7---6---5---------------------------------------|
|--------------------7---6---5---------------------------------------|
|-----7-----6--------5---4---3---------------------------------------|
|-0-0---0-0---0-0---------------------0-0-7-0-0-6-0-0-5-0-4-0-3-0-2--|

*2*Play Two Times*2*
|--------------------------------------------------------------------|
|--------------------------------------------------------------------|
|--------------------------------------------------------------------|
|--------------------------------------------------------------------|
|-----2-----3-----4-----3-----2-2-----2-----3------5\4---5\4---5\4---|
|-0-1---0-1---0-1---0-1---0-1-----0-1---0-1---0-0--3\2-0-3\2-0-3\2---|
 Continue reading 
tunning open A (low to high: E A E A C# E)
this is the exact way to play this song

riff 1 :

use a sub octave effect to get the sound that jack gets in the intro

e-------------------------------=-----------|
C#------------------------------------------|
A-------------------------------------------|
E-------------------------------------------|
A---7----7----10----7----5----3----2--------|
E-------------------------------------------|
8x
 Continue reading 
Tuning: Half-Step Down
Intro: Piano

Both Guitars, pre-verse:
eb|---------------------------------------------------------------------------|
Bb|---------------------------------------------------------------------------|
Gb|-------7-55555-777-------7-55555-777-99999-7-55555-777---------------------|
Db|-55555-7-55555-777-55555-7-55555-777-99999-7-55555-777-55555-4-5-----------|
Ab|-55555-5-33333-555-55555-5-33333-555-77777-5-33333-555-55555-4-5-----------|
Eb|-33333-------------33333-------------------------------33333-2-3-----------|
 Continue reading 
I’m Yours
Standard Tuning
No Capo

Intro:

Guitar 1 (playing lead melody)

|--------------------------------------|------------------------------|
|--------------------------------------|------------------------------|
|-11/13-11~~11/13-11~~11/13-----8/9----|-11/13-11~~11/13-11~~11/13----|
|---------------------------13~~----9~~|---------------------------13~|
|--------------------------------------|------------------------------|
|--------------------------------------|------------------------------|

Guitar 1 (continued...)
 Continue reading 
Standard Tuning

^ = Bend
x = mute note
h = hammer-on
~ = vibrato

INTRO:
Guitar (clean):
e|-----------------|------------------|-----------------|------------------|
B|-----------------|------------------|-----------------|------------------|
G|-------------3-3-|-0------------6-6-|-------------3-3-|-0------------6-6-|
D|-3--3-3-xxxx-3-3-|-06--6-6-xxxx-6-6-|-3--3-3-xxxx-3-3-|-06--6-6-xxxx-6-6-|
A|-3--3-3-xxxx-1-1-|-06--6-6-xxxx-4-4-|-3--3-3-xxxx-1-1-|-06--6-6-xxxx-4-4-|
E|-1--1-1-xxxx-----|--4--4-4-xxxx-----|-1--1-1-xxxx-----|--4--4-4-xxxx-----|

 Continue reading 
guitar 1(clean)
G                D/F#            C/E             D
e----------------|--------2------|--------0------|---------------|
b-----3-----3----|----3-----3----|----1-----1----|----3-----3----|
g---4-----4---4--|--2---------2--|--0---------0--|--2-----2---2--|
d-5-----5-------5|4-----4-------4|2-----2-------2|0-----0-0-----0|
a----------------|---------------|---------------|---------------|
e----------------|---------------|---------------|---------------|
(let ring)
guitar 2(clean)
e---------3------|--------2------|--------0------|---------------|
b-----3-----3----|----3-----3----|----1-----1----|---------------|
g---4---------4--|--2---------2--|--0---------0--|2--4--5---5/9--|
d-5-----5-------5|4-----4-------4|2-----2-------2|4--5--7---7/10-|
a----------------|---------------|---------------|---------------|
e----------------|---------------|---------------|---------------|
 Continue reading 
r1 is:
A                   Dm                  F
E|----------------------------------------------------------------|
B|----------------------------------------------------------------|
G|--2-2-2-0-2-3-2-0-----2-2-2-0-2-3-2-0-----2-2-2-0-2-3-2-0-------|
D|----------------------------------------------------------------|
A|----------------------------------------------------------------|
E|----------------------------------------------------------------|
r2 is: (simply play C Major scale)
C
E|--------------------------------------------------|
B|--------------------------------------------------|
G|------------2-4-5---------------------------------|
D|------2-3-5---------------------------------------|
A|--3-5---------------------------------------------|
E|--------------------------------------------------|
r3: (F Major scale)
F
E|--------------------------------------------------|
B|------------3-5-6---------------------------------|
G|------2-3-5---------------------------------------|
D|--3-5---------------------------------------------|
A|--------------------------------------------------|
E|--------------------------------------------------|
Eb--------------15----14---|--------------15----14---|----
Bb-----15------------------|-----15------------------|----
Gb--------14-12----14----14|--------14-12----14----14|----
Db--12---------------------|--14---------------------|----
Ab-------------------------|-------------------------|----
Eb-------------------------|-------------------------|---- 

       X2                                 x2
Eb--------------15----14---|--------------15----14---|
Bb-----15------------------|-----15------------------|
Gb--12----14-12----14----14|--------14-12----14----14|
Db-------------------------|--12---------------------|
Ab-------------------------|-------------------------|
Eb-------------------------|-------------------------|

 Continue reading 
Words and Music by The Doors
with vib. effect                       B(0.25)
|--------|---------|--------|------------|------|---------|---------------|
|--------|---------|--------|------------|------|---------|---------------|
|--------|---------|--------|------------|------|---------|---------------|
|--------|2---2-0-2|--------|2-2-2-0-2-0-|------|---------|---------------|
|--------|---------|--------|-----------2|0-----|0-0-0-3-0|---------------|
|--------|---------|--------|------------|------|---------|-0-------------|
Riders on       riders on            in-to this     in-to this world
the storm       the storm           house were born     were thrown
 Continue reading 
%d bloggers like this: